ISO-10303-21;
HEADER;
FILE_DESCRIPTION(('STEP AP214'),'1');
FILE_NAME('C:/TPO v2/SharedFS/Outgoing/hpca85.stp','2015-08-13T12:16:53',('TraceParts'),('TraceParts S.A.'),'Spatial InterOp 3D',' ',' ');
FILE_SCHEMA(('automotive_design'));
ENDSEC;
DATA;
#1=PRODUCT_DEFINITION_CONTEXT('',#9,'design');
#2=APPLICATION_PROTOCOL_DEFINITION('INTERNATIONAL STANDARD','automotive_design',1994,#9);
#3=PRODUCT_CATEGORY_RELATIONSHIP('NONE','NONE',#10,#11);
#4=SHAPE_DEFINITION_REPRESENTATION(#12,#13);
#5= (GEOMETRIC_REPRESENTATION_CONTEXT(3)GLOBAL_UNCERTAINTY_ASSIGNED_CONTEXT((#16))GLOBAL_UNIT_ASSIGNED_CONTEXT((#18,#19,#20))REPRESENTATION_CONTEXT('NONE','WORKSPACE'));
#9=APPLICATION_CONTEXT(' ');
#10=PRODUCT_CATEGORY('part','NONE');
#11=PRODUCT_RELATED_PRODUCT_CATEGORY('detail',' ',(#22));
#12=PRODUCT_DEFINITION_SHAPE('NONE','NONE',#23);
#13=ADVANCED_BREP_SHAPE_REPRESENTATION('1',(#24,#25),#5);
#16=UNCERTAINTY_MEASURE_WITH_UNIT(LENGTH_MEASURE(1.0E-006),#18,'','');
#18= (CONVERSION_BASED_UNIT('MILLIMETRE',#28)LENGTH_UNIT()NAMED_UNIT(#31));
#19= (NAMED_UNIT(#33)PLANE_ANGLE_UNIT()SI_UNIT($,.RADIAN.));
#20= (NAMED_UNIT(#33)SOLID_ANGLE_UNIT()SI_UNIT($,.STERADIAN.));
#22=PRODUCT('1','1','PART-1-DESC',(#39));
#23=PRODUCT_DEFINITION('NONE','NONE',#40,#1);
#24=MANIFOLD_SOLID_BREP('1',#41);
#25=AXIS2_PLACEMENT_3D('',#42,#43,#44);
#28=LENGTH_MEASURE_WITH_UNIT(LENGTH_MEASURE(1.0),#45);
#31=DIMENSIONAL_EXPONENTS(1.0,0.0,0.0,0.0,0.0,0.0,0.0);
#33=DIMENSIONAL_EXPONENTS(0.0,0.0,0.0,0.0,0.0,0.0,0.0);
#39=PRODUCT_CONTEXT('',#9,'mechanical');
#40=PRODUCT_DEFINITION_FORMATION_WITH_SPECIFIED_SOURCE(' ','NONE',#22,.NOT_KNOWN.);
#41=CLOSED_SHELL('',(#46,#47,#48,#49,#50,#51,#52,#53,#54,#55,#56,#57));
#42=CARTESIAN_POINT('',(0.0,0.0,0.0));
#43=DIRECTION('',(0.0,0.0,1.0));
#44=DIRECTION('',(1.0,0.0,0.0));
#45= (NAMED_UNIT(#31)LENGTH_UNIT()SI_UNIT(.MILLI.,.METRE.));
#46=ADVANCED_FACE('',(#59),#60,.T.);
#47=ADVANCED_FACE('',(#61),#62,.T.);
#48=ADVANCED_FACE('',(#63),#64,.T.);
#49=ADVANCED_FACE('',(#65),#66,.F.);
#50=ADVANCED_FACE('',(#67),#68,.F.);
#51=ADVANCED_FACE('',(#69),#70,.T.);
#52=ADVANCED_FACE('',(#71),#72,.T.);
#53=ADVANCED_FACE('',(#73,#74),#75,.T.);
#54=ADVANCED_FACE('',(#76,#77),#78,.T.);
#55=ADVANCED_FACE('',(#79),#80,.T.);
#56=ADVANCED_FACE('',(#81,#82),#83,.T.);
#57=ADVANCED_FACE('',(#84,#85),#86,.T.);
#59=FACE_OUTER_BOUND('',#87,.T.);
#60=CYLINDRICAL_SURFACE('',#88,42.5);
#61=FACE_OUTER_BOUND('',#89,.T.);
#62=CYLINDRICAL_SURFACE('',#90,22.25);
#63=FACE_OUTER_BOUND('',#91,.T.);
#64=CYLINDRICAL_SURFACE('',#92,22.25);
#65=FACE_OUTER_BOUND('',#93,.T.);
#66=CYLINDRICAL_SURFACE('',#94,12.5);
#67=FACE_OUTER_BOUND('',#95,.T.);
#68=CYLINDRICAL_SURFACE('',#96,12.5);
#69=FACE_OUTER_BOUND('',#97,.T.);
#70=CYLINDRICAL_SURFACE('',#98,22.25);
#71=FACE_OUTER_BOUND('',#99,.T.);
#72=CYLINDRICAL_SURFACE('',#100,22.25);
#73=FACE_BOUND('',#101,.T.);
#74=FACE_OUTER_BOUND('',#102,.T.);
#75=PLANE('',#103);
#76=FACE_BOUND('',#104,.T.);
#77=FACE_OUTER_BOUND('',#105,.T.);
#78=PLANE('',#106);
#79=FACE_OUTER_BOUND('',#107,.T.);
#80=CYLINDRICAL_SURFACE('',#108,42.5);
#81=FACE_BOUND('',#109,.T.);
#82=FACE_OUTER_BOUND('',#110,.T.);
#83=PLANE('',#111);
#84=FACE_BOUND('',#112,.T.);
#85=FACE_OUTER_BOUND('',#113,.T.);
#86=PLANE('',#114);
#87=EDGE_LOOP('',(#115,#116,#117,#118));
#88=AXIS2_PLACEMENT_3D('',#119,#120,#121);
#89=EDGE_LOOP('',(#122,#123,#124,#125));
#90=AXIS2_PLACEMENT_3D('',#126,#127,#128);
#91=EDGE_LOOP('',(#129,#130,#131,#132));
#92=AXIS2_PLACEMENT_3D('',#133,#134,#135);
#93=EDGE_LOOP('',(#136,#137,#138,#139));
#94=AXIS2_PLACEMENT_3D('',#140,#141,#142);
#95=EDGE_LOOP('',(#143,#144,#145,#146));
#96=AXIS2_PLACEMENT_3D('',#147,#148,#149);
#97=EDGE_LOOP('',(#150,#151,#152,#153));
#98=AXIS2_PLACEMENT_3D('',#154,#155,#156);
#99=EDGE_LOOP('',(#157,#158,#159,#160));
#100=AXIS2_PLACEMENT_3D('',#161,#162,#163);
#101=EDGE_LOOP('',(#164,#165));
#102=EDGE_LOOP('',(#166,#167));
#103=AXIS2_PLACEMENT_3D('',#168,#169,#170);
#104=EDGE_LOOP('',(#171,#172));
#105=EDGE_LOOP('',(#173,#174));
#106=AXIS2_PLACEMENT_3D('',#175,#176,#177);
#107=EDGE_LOOP('',(#178,#179,#180,#181));
#108=AXIS2_PLACEMENT_3D('',#182,#183,#184);
#109=EDGE_LOOP('',(#185,#186));
#110=EDGE_LOOP('',(#187,#188));
#111=AXIS2_PLACEMENT_3D('',#189,#190,#191);
#112=EDGE_LOOP('',(#192,#193));
#113=EDGE_LOOP('',(#194,#195));
#114=AXIS2_PLACEMENT_3D('',#196,#197,#198);
#115=ORIENTED_EDGE('',*,*,#199,.F.);
#116=ORIENTED_EDGE('',*,*,#200,.F.);
#117=ORIENTED_EDGE('',*,*,#201,.F.);
#118=ORIENTED_EDGE('',*,*,#202,.F.);
#119=CARTESIAN_POINT('',(23.0,0.0,0.0));
#120=DIRECTION('',(1.0,0.0,0.0));
#121=DIRECTION('',(0.0,0.0,-1.0));
#122=ORIENTED_EDGE('',*,*,#203,.F.);
#123=ORIENTED_EDGE('',*,*,#204,.F.);
#124=ORIENTED_EDGE('',*,*,#205,.F.);
#125=ORIENTED_EDGE('',*,*,#206,.F.);
#126=CARTESIAN_POINT('',(23.0,0.0,0.0));
#127=DIRECTION('',(1.0,0.0,0.0));
#128=DIRECTION('',(0.0,0.0,-1.0));
#129=ORIENTED_EDGE('',*,*,#207,.F.);
#130=ORIENTED_EDGE('',*,*,#208,.F.);
#131=ORIENTED_EDGE('',*,*,#209,.F.);
#132=ORIENTED_EDGE('',*,*,#210,.F.);
#133=CARTESIAN_POINT('',(23.0,0.0,0.0));
#134=DIRECTION('',(1.0,0.0,0.0));
#135=DIRECTION('',(0.0,0.0,-1.0));
#136=ORIENTED_EDGE('',*,*,#211,.F.);
#137=ORIENTED_EDGE('',*,*,#212,.F.);
#138=ORIENTED_EDGE('',*,*,#213,.F.);
#139=ORIENTED_EDGE('',*,*,#214,.F.);
#140=CARTESIAN_POINT('',(23.0,0.0,0.0));
#141=DIRECTION('',(1.0,0.0,0.0));
#142=DIRECTION('',(0.0,0.0,-1.0));
#143=ORIENTED_EDGE('',*,*,#211,.T.);
#144=ORIENTED_EDGE('',*,*,#215,.F.);
#145=ORIENTED_EDGE('',*,*,#213,.T.);
#146=ORIENTED_EDGE('',*,*,#216,.F.);
#147=CARTESIAN_POINT('',(23.0,0.0,0.0));
#148=DIRECTION('',(1.0,0.0,0.0));
#149=DIRECTION('',(0.0,0.0,-1.0));
#150=ORIENTED_EDGE('',*,*,#207,.T.);
#151=ORIENTED_EDGE('',*,*,#217,.F.);
#152=ORIENTED_EDGE('',*,*,#209,.T.);
#153=ORIENTED_EDGE('',*,*,#218,.F.);
#154=CARTESIAN_POINT('',(23.0,0.0,0.0));
#155=DIRECTION('',(1.0,0.0,0.0));
#156=DIRECTION('',(0.0,0.0,-1.0));
#157=ORIENTED_EDGE('',*,*,#203,.T.);
#158=ORIENTED_EDGE('',*,*,#219,.F.);
#159=ORIENTED_EDGE('',*,*,#205,.T.);
#160=ORIENTED_EDGE('',*,*,#220,.F.);
#161=CARTESIAN_POINT('',(23.0,0.0,0.0));
#162=DIRECTION('',(1.0,0.0,0.0));
#163=DIRECTION('',(0.0,0.0,-1.0));
#164=ORIENTED_EDGE('',*,*,#215,.T.);
#165=ORIENTED_EDGE('',*,*,#214,.T.);
#166=ORIENTED_EDGE('',*,*,#218,.T.);
#167=ORIENTED_EDGE('',*,*,#208,.T.);
#168=CARTESIAN_POINT('',(0.0,0.0,0.0));
#169=DIRECTION('',(-1.0,0.0,0.0));
#170=DIRECTION('',(0.0,0.0,1.0));
#171=ORIENTED_EDGE('',*,*,#212,.T.);
#172=ORIENTED_EDGE('',*,*,#216,.T.);
#173=ORIENTED_EDGE('',*,*,#206,.T.);
#174=ORIENTED_EDGE('',*,*,#219,.T.);
#175=CARTESIAN_POINT('',(46.0,0.0,0.0));
#176=DIRECTION('',(1.0,0.0,0.0));
#177=DIRECTION('',(0.0,0.0,-1.0));
#178=ORIENTED_EDGE('',*,*,#199,.T.);
#179=ORIENTED_EDGE('',*,*,#221,.F.);
#180=ORIENTED_EDGE('',*,*,#201,.T.);
#181=ORIENTED_EDGE('',*,*,#222,.F.);
#182=CARTESIAN_POINT('',(23.0,0.0,0.0));
#183=DIRECTION('',(1.0,0.0,0.0));
#184=DIRECTION('',(0.0,0.0,-1.0));
#185=ORIENTED_EDGE('',*,*,#217,.T.);
#186=ORIENTED_EDGE('',*,*,#210,.T.);
#187=ORIENTED_EDGE('',*,*,#222,.T.);
#188=ORIENTED_EDGE('',*,*,#200,.T.);
#189=CARTESIAN_POINT('',(1.0,0.0,0.0));
#190=DIRECTION('',(-1.0,0.0,0.0));
#191=DIRECTION('',(0.0,0.0,1.0));
#192=ORIENTED_EDGE('',*,*,#204,.T.);
#193=ORIENTED_EDGE('',*,*,#220,.T.);
#194=ORIENTED_EDGE('',*,*,#202,.T.);
#195=ORIENTED_EDGE('',*,*,#221,.T.);
#196=CARTESIAN_POINT('',(45.0,0.0,0.0));
#197=DIRECTION('',(1.0,0.0,0.0));
#198=DIRECTION('',(0.0,0.0,-1.0));
#199=EDGE_CURVE('',#223,#224,#225,.T.);
#200=EDGE_CURVE('',#226,#223,#227,.T.);
#201=EDGE_CURVE('',#228,#226,#229,.T.);
#202=EDGE_CURVE('',#224,#228,#230,.T.);
#203=EDGE_CURVE('',#231,#232,#233,.T.);
#204=EDGE_CURVE('',#234,#231,#235,.T.);
#205=EDGE_CURVE('',#236,#234,#237,.T.);
#206=EDGE_CURVE('',#232,#236,#238,.T.);
#207=EDGE_CURVE('',#239,#240,#241,.T.);
#208=EDGE_CURVE('',#242,#239,#243,.T.);
#209=EDGE_CURVE('',#244,#242,#245,.T.);
#210=EDGE_CURVE('',#240,#244,#246,.T.);
#211=EDGE_CURVE('',#247,#248,#249,.T.);
#212=EDGE_CURVE('',#250,#247,#251,.T.);
#213=EDGE_CURVE('',#252,#250,#253,.T.);
#214=EDGE_CURVE('',#248,#252,#254,.T.);
#215=EDGE_CURVE('',#252,#248,#255,.T.);
#216=EDGE_CURVE('',#247,#250,#256,.T.);
#217=EDGE_CURVE('',#244,#240,#257,.T.);
#218=EDGE_CURVE('',#239,#242,#258,.T.);
#219=EDGE_CURVE('',#236,#232,#259,.T.);
#220=EDGE_CURVE('',#231,#234,#260,.T.);
#221=EDGE_CURVE('',#228,#224,#261,.T.);
#222=EDGE_CURVE('',#223,#226,#262,.T.);
#223=VERTEX_POINT('',#263);
#224=VERTEX_POINT('',#264);
#225=LINE('',#265,#266);
#226=VERTEX_POINT('',#267);
#227=CIRCLE('',#268,42.5);
#228=VERTEX_POINT('',#269);
#229=LINE('',#270,#271);
#230=CIRCLE('',#272,42.5);
#231=VERTEX_POINT('',#273);
#232=VERTEX_POINT('',#274);
#233=LINE('',#275,#276);
#234=VERTEX_POINT('',#277);
#235=CIRCLE('',#278,22.25);
#236=VERTEX_POINT('',#279);
#237=LINE('',#280,#281);
#238=CIRCLE('',#282,22.25);
#239=VERTEX_POINT('',#283);
#240=VERTEX_POINT('',#284);
#241=LINE('',#285,#286);
#242=VERTEX_POINT('',#287);
#243=CIRCLE('',#288,22.25);
#244=VERTEX_POINT('',#289);
#245=LINE('',#290,#291);
#246=CIRCLE('',#292,22.25);
#247=VERTEX_POINT('',#293);
#248=VERTEX_POINT('',#294);
#249=LINE('',#295,#296);
#250=VERTEX_POINT('',#297);
#251=CIRCLE('',#298,12.5);
#252=VERTEX_POINT('',#299);
#253=LINE('',#300,#301);
#254=CIRCLE('',#302,12.5);
#255=CIRCLE('',#303,12.5);
#256=CIRCLE('',#304,12.5);
#257=CIRCLE('',#305,22.25);
#258=CIRCLE('',#306,22.25);
#259=CIRCLE('',#307,22.25);
#260=CIRCLE('',#308,22.25);
#261=CIRCLE('',#309,42.5);
#262=CIRCLE('',#310,42.5);
#263=CARTESIAN_POINT('',(1.0,0.0,-42.5));
#264=CARTESIAN_POINT('',(45.0,0.0,-42.5));
#265=CARTESIAN_POINT('',(23.0,-5.2045770037451E-015,-42.5));
#266=VECTOR('',#311,1.0);
#267=CARTESIAN_POINT('',(1.0,5.2045770037451E-015,42.5));
#268=AXIS2_PLACEMENT_3D('',#312,#313,#314);
#269=CARTESIAN_POINT('',(45.0,5.2045770037451E-015,42.5));
#270=CARTESIAN_POINT('',(23.0,5.2045770037451E-015,42.5));
#271=VECTOR('',#315,1.0);
#272=AXIS2_PLACEMENT_3D('',#316,#317,#318);
#273=CARTESIAN_POINT('',(45.0,-2.72474913725479E-015,-22.25));
#274=CARTESIAN_POINT('',(46.0,0.0,-22.25));
#275=CARTESIAN_POINT('',(45.5,-2.72474913725479E-015,-22.25));
#276=VECTOR('',#319,1.0);
#277=CARTESIAN_POINT('',(45.0,2.72474913725479E-015,22.25));
#278=AXIS2_PLACEMENT_3D('',#320,#321,#322);
#279=CARTESIAN_POINT('',(46.0,2.72474913725479E-015,22.25));
#280=CARTESIAN_POINT('',(45.5,2.72474913725479E-015,22.25));
#281=VECTOR('',#323,1.0);
#282=AXIS2_PLACEMENT_3D('',#324,#325,#326);
#283=CARTESIAN_POINT('',(0.0,0.0,-22.25));
#284=CARTESIAN_POINT('',(1.0,-2.72474913725479E-015,-22.25));
#285=CARTESIAN_POINT('',(0.5,-2.72474913725479E-015,-22.25));
#286=VECTOR('',#327,1.0);
#287=CARTESIAN_POINT('',(0.0,2.72474913725479E-015,22.25));
#288=AXIS2_PLACEMENT_3D('',#328,#329,#330);
#289=CARTESIAN_POINT('',(1.0,-2.72474913725479E-015,22.25));
#290=CARTESIAN_POINT('',(0.5,2.72474913725479E-015,22.25));
#291=VECTOR('',#331,1.0);
#292=AXIS2_PLACEMENT_3D('',#332,#333,#334);
#293=CARTESIAN_POINT('',(46.0,-1.53075794227797E-015,-12.5));
#294=CARTESIAN_POINT('',(0.0,-1.53075794227797E-015,-12.5));
#295=CARTESIAN_POINT('',(23.0,-1.53075794227797E-015,-12.5));
#296=VECTOR('',#335,1.0);
#297=CARTESIAN_POINT('',(46.0,1.53075794227797E-015,12.5));
#298=AXIS2_PLACEMENT_3D('',#336,#337,#338);
#299=CARTESIAN_POINT('',(0.0,-1.53075794227797E-015,12.5));
#300=CARTESIAN_POINT('',(23.0,1.53075794227797E-015,12.5));
#301=VECTOR('',#339,1.0);
#302=AXIS2_PLACEMENT_3D('',#340,#341,#342);
#303=AXIS2_PLACEMENT_3D('',#343,#344,#345);
#304=AXIS2_PLACEMENT_3D('',#346,#347,#348);
#305=AXIS2_PLACEMENT_3D('',#349,#350,#351);
#306=AXIS2_PLACEMENT_3D('',#352,#353,#354);
#307=AXIS2_PLACEMENT_3D('',#355,#356,#357);
#308=AXIS2_PLACEMENT_3D('',#358,#359,#360);
#309=AXIS2_PLACEMENT_3D('',#361,#362,#363);
#310=AXIS2_PLACEMENT_3D('',#364,#365,#366);
#311=DIRECTION('',(1.0,0.0,0.0));
#312=CARTESIAN_POINT('',(1.0,0.0,0.0));
#313=DIRECTION('',(-1.0,0.0,0.0));
#314=DIRECTION('',(0.0,0.0,-1.0));
#315=DIRECTION('',(-1.0,-0.0,-0.0));
#316=CARTESIAN_POINT('',(45.0,0.0,0.0));
#317=DIRECTION('',(1.0,0.0,0.0));
#318=DIRECTION('',(0.0,0.0,-1.0));
#319=DIRECTION('',(1.0,0.0,0.0));
#320=CARTESIAN_POINT('',(45.0,0.0,0.0));
#321=DIRECTION('',(-1.0,-0.0,-0.0));
#322=DIRECTION('',(0.0,0.0,-1.0));
#323=DIRECTION('',(-1.0,-0.0,-0.0));
#324=CARTESIAN_POINT('',(46.0,0.0,0.0));
#325=DIRECTION('',(1.0,0.0,0.0));
#326=DIRECTION('',(0.0,0.0,-1.0));
#327=DIRECTION('',(1.0,0.0,0.0));
#328=CARTESIAN_POINT('',(0.0,0.0,0.0));
#329=DIRECTION('',(-1.0,0.0,0.0));
#330=DIRECTION('',(0.0,0.0,-1.0));
#331=DIRECTION('',(-1.0,-0.0,-0.0));
#332=CARTESIAN_POINT('',(1.0,0.0,0.0));
#333=DIRECTION('',(1.0,0.0,0.0));
#334=DIRECTION('',(0.0,0.0,-1.0));
#335=DIRECTION('',(-1.0,0.0,0.0));
#336=CARTESIAN_POINT('',(46.0,0.0,0.0));
#337=DIRECTION('',(-1.0,-0.0,-0.0));
#338=DIRECTION('',(0.0,0.0,-1.0));
#339=DIRECTION('',(1.0,0.0,0.0));
#340=CARTESIAN_POINT('',(0.0,0.0,0.0));
#341=DIRECTION('',(1.0,0.0,0.0));
#342=DIRECTION('',(0.0,0.0,-1.0));
#343=CARTESIAN_POINT('',(0.0,0.0,0.0));
#344=DIRECTION('',(1.0,0.0,0.0));
#345=DIRECTION('',(0.0,0.0,-1.0));
#346=CARTESIAN_POINT('',(46.0,0.0,0.0));
#347=DIRECTION('',(-1.0,-0.0,-0.0));
#348=DIRECTION('',(0.0,0.0,-1.0));
#349=CARTESIAN_POINT('',(1.0,0.0,0.0));
#350=DIRECTION('',(1.0,0.0,0.0));
#351=DIRECTION('',(0.0,0.0,-1.0));
#352=CARTESIAN_POINT('',(0.0,0.0,0.0));
#353=DIRECTION('',(-1.0,0.0,0.0));
#354=DIRECTION('',(0.0,0.0,-1.0));
#355=CARTESIAN_POINT('',(46.0,0.0,0.0));
#356=DIRECTION('',(1.0,0.0,0.0));
#357=DIRECTION('',(0.0,0.0,-1.0));
#358=CARTESIAN_POINT('',(45.0,0.0,0.0));
#359=DIRECTION('',(-1.0,-0.0,-0.0));
#360=DIRECTION('',(0.0,0.0,-1.0));
#361=CARTESIAN_POINT('',(45.0,0.0,0.0));
#362=DIRECTION('',(1.0,0.0,0.0));
#363=DIRECTION('',(0.0,0.0,-1.0));
#364=CARTESIAN_POINT('',(1.0,0.0,0.0));
#365=DIRECTION('',(-1.0,0.0,0.0));
#366=DIRECTION('',(0.0,0.0,-1.0));
ENDSEC;
END-ISO-10303-21;
